ISO-10303-21;
HEADER;
FILE_DESCRIPTION (( 'STEP AP203' ),
    '1' );
FILE_NAME ('QM-CAQWP-10-450-650-M.STEP',
    '2021-01-05T02:43:41',
    ( '' ),
    ( '' ),
    'SwSTEP 2.0',
    'SolidWorks 2020',
    '' );
FILE_SCHEMA (( 'CONFIG_CONTROL_DESIGN' ));
ENDSEC;

DATA;
#1 = CARTESIAN_POINT ( 'NONE',  ( 0.000000000000000000, 0.000000000000000000, 0.000000000000000000 ) ) ;
#2 = LOCAL_TIME ( 10, 43, 41.00000000000000000, #208 ) ;
#3 = CALENDAR_DATE ( 2021, 5, 1 ) ;
#4 = PERSON_AND_ORGANIZATION ( #134, #138 ) ;
#5 = ORIENTED_EDGE ( 'NONE', *, *, #193, .T. ) ;
#6 = ORIENTED_EDGE ( 'NONE', *, *, #19, .T. ) ;
#7 = CARTESIAN_POINT ( 'NONE',  ( 0.5000000000000004441, 6.123233995736766282E-16, -5.000000000000000000 ) ) ;
#8 = CYLINDRICAL_SURFACE ( 'NONE', #158, 12.69999999999999929 ) ;
#9 = CARTESIAN_POINT ( 'NONE',  ( -3.000000000000000000, 0.000000000000000000, 5.000000000000000000 ) ) ;
#10 = CARTESIAN_POINT ( 'NONE',  ( -1.614212418857619014, 0.000000000000000000, 12.69999999999999929 ) ) ;
#11 = AXIS2_PLACEMENT_3D ( 'NONE', #293, #246, #290 ) ;
#12 = VERTEX_POINT ( 'NONE', #309 ) ;
#13 = FACE_BOUND ( 'NONE', #231, .T. ) ;
#14 = AXIS2_PLACEMENT_3D ( 'NONE', #109, #112, #36 ) ;
#15 = CARTESIAN_POINT ( 'NONE',  ( -1.614212418857619014, 0.000000000000000000, 0.000000000000000000 ) ) ;
#16 = CARTESIAN_POINT ( 'NONE',  ( -0.5000000000000002220, 0.000000000000000000, 0.000000000000000000 ) ) ;
#17 = ADVANCED_FACE ( 'NONE', ( #61 ), #161, .F. ) ;
#18 = CARTESIAN_POINT ( 'NONE',  ( -3.000000000000000000, 6.123233995736766282E-16, -5.000000000000000000 ) ) ;
#19 = EDGE_CURVE ( 'NONE', #58, #289, #84, .T. ) ;
#20 = ORIENTED_EDGE ( 'NONE', *, *, #39, .F. ) ;
#21 = DIRECTION ( 'NONE',  ( 1.000000000000000000, 0.000000000000000000, 0.000000000000000000 ) ) ;
#22 = ORIENTED_EDGE ( 'NONE', *, *, #280, .T. ) ;
#23 = EDGE_LOOP ( 'NONE', ( #150, #101 ) ) ;
#24 = COORDINATED_UNIVERSAL_TIME_OFFSET ( 8, 0, .AHEAD. ) ;
#25 = PERSON_AND_ORGANIZATION_ROLE ( 'classification_officer' ) ;
#26 =( NAMED_UNIT ( * ) PLANE_ANGLE_UNIT ( ) SI_UNIT ( $, .RADIAN. ) );
#27 = ADVANCED_FACE ( 'NONE', ( #133 ), #319, .T. ) ;
#28 = AXIS2_PLACEMENT_3D ( 'NONE', #1, #182, #224 ) ;
#29 = COORDINATED_UNIVERSAL_TIME_OFFSET ( 8, 0, .AHEAD. ) ;
#30 = ORIENTED_EDGE ( 'NONE', *, *, #292, .F. ) ;
#31 = CC_DESIGN_DATE_AND_TIME_ASSIGNMENT ( #305, #275, ( #242 ) ) ;
#32 = ADVANCED_BREP_SHAPE_REPRESENTATION ( 'QM-CAQWP-10-450-650-M', ( #332, #28 ), #111 ) ;
#33 = EDGE_LOOP ( 'NONE', ( #74, #327 ) ) ;
#34 = CARTESIAN_POINT ( 'NONE',  ( -0.5000000000000002220, 0.000000000000000000, 0.000000000000000000 ) ) ;
#35 = CARTESIAN_POINT ( 'NONE',  ( -0.5000000000000002220, 6.123233995736767268E-16, -5.000000000000000888 ) ) ;
#36 = DIRECTION ( 'NONE',  ( 0.000000000000000000, 0.000000000000000000, 1.000000000000000000 ) ) ;
#37 = AXIS2_PLACEMENT_3D ( 'NONE', #282, #216, #214 ) ;
#38 = FACE_BOUND ( 'NONE', #23, .T. ) ;
#39 = EDGE_CURVE ( 'NONE', #204, #80, #285, .T. ) ;
#40 = CIRCLE ( 'NONE', #94, 5.000000000000000000 ) ;
#41 = LINE ( 'NONE', #239, #306 ) ;
#42 = VECTOR ( 'NONE', #219, 1000.000000000000000 ) ;
#43 = PRODUCT_RELATED_PRODUCT_CATEGORY ( 'detail', '', ( #59 ) ) ;
#44 = CARTESIAN_POINT ( 'NONE',  ( 0.5000000000000004441, 0.000000000000000000, 5.000000000000000000 ) ) ;
#45 = DIRECTION ( 'NONE',  ( 0.000000000000000000, 0.000000000000000000, 1.000000000000000000 ) ) ;
#46 = PLANE ( 'NONE',  #317 ) ;
#47 = AXIS2_PLACEMENT_3D ( 'NONE', #16, #21, #320 ) ;
#48 = ORIENTED_EDGE ( 'NONE', *, *, #169, .F. ) ;
#49 = VERTEX_POINT ( 'NONE', #7 ) ;
#50 = CYLINDRICAL_SURFACE ( 'NONE', #262, 5.000000000000000888 ) ;
#51 = VERTEX_POINT ( 'NONE', #163 ) ;
#52 = APPROVAL_ROLE ( '' ) ;
#53 = ADVANCED_FACE ( 'NONE', ( #13, #190 ), #235, .F. ) ;
#54 = APPROVAL_STATUS ( 'not_yet_approved' ) ;
#55 = APPROVAL ( #179, 'UNSPECIFIED' ) ;
#56 = AXIS2_PLACEMENT_3D ( 'NONE', #203, #93, #266 ) ;
#57 = DATE_AND_TIME ( #226, #71 ) ;
#58 = VERTEX_POINT ( 'NONE', #35 ) ;
#59 = PRODUCT ( 'QM-CAQWP-10-450-650-M', 'QM-CAQWP-10-450-650-M', '', ( #102 ) ) ;
#60 = DIRECTION ( 'NONE',  ( 0.000000000000000000, 0.000000000000000000, -1.000000000000000000 ) ) ;
#61 = FACE_OUTER_BOUND ( 'NONE', #120, .T. ) ;
#62 = APPROVAL_PERSON_ORGANIZATION ( #75, #296, #106 ) ;
#63 = FACE_OUTER_BOUND ( 'NONE', #181, .T. ) ;
#64 = FACE_OUTER_BOUND ( 'NONE', #118, .T. ) ;
#65 = CC_DESIGN_PERSON_AND_ORGANIZATION_ASSIGNMENT ( #152, #274, ( #59 ) ) ;
#66 = EDGE_LOOP ( 'NONE', ( #276, #145, #232, #103 ) ) ;
#67 = CIRCLE ( 'NONE', #104, 12.69999999999999929 ) ;
#68 = DIRECTION ( 'NONE',  ( -1.000000000000000000, -0.000000000000000000, -0.000000000000000000 ) ) ;
#69 = ORIENTED_EDGE ( 'NONE', *, *, #252, .F. ) ;
#70 = DIRECTION ( 'NONE',  ( 0.000000000000000000, 0.000000000000000000, 1.000000000000000000 ) ) ;
#71 = LOCAL_TIME ( 10, 43, 41.00000000000000000, #24 ) ;
#72 = VERTEX_POINT ( 'NONE', #237 ) ;
#73 = DIRECTION ( 'NONE',  ( 0.000000000000000000, 0.000000000000000000, 1.000000000000000000 ) ) ;
#74 = ORIENTED_EDGE ( 'NONE', *, *, #193, .F. ) ;
#75 = PERSON_AND_ORGANIZATION ( #134, #138 ) ;
#76 = ORIENTED_EDGE ( 'NONE', *, *, #302, .T. ) ;
#77 = CC_DESIGN_APPROVAL ( #55, ( #185 ) ) ;
#78 = APPLICATION_PROTOCOL_DEFINITION ( 'international standard', 'config_control_design', 1994, #297 ) ;
#79 = APPROVAL_ROLE ( '' ) ;
#80 = VERTEX_POINT ( 'NONE', #213 ) ;
#81 = LOCAL_TIME ( 10, 43, 41.00000000000000000, #159 ) ;
#82 = DIRECTION ( 'NONE',  ( -1.000000000000000000, -0.000000000000000000, -0.000000000000000000 ) ) ;
#83 = ADVANCED_FACE ( 'NONE', ( #64 ), #8, .T. ) ;
#84 = CIRCLE ( 'NONE', #113, 5.000000000000000888 ) ;
#85 = PLANE ( 'NONE',  #286 ) ;
#86 = DIRECTION ( 'NONE',  ( 0.000000000000000000, 0.000000000000000000, -1.000000000000000000 ) ) ;
#87 = CIRCLE ( 'NONE', #154, 12.69999999999999929 ) ;
#88 = DIRECTION ( 'NONE',  ( -1.000000000000000000, -0.000000000000000000, -0.000000000000000000 ) ) ;
#89 = CC_DESIGN_PERSON_AND_ORGANIZATION_ASSIGNMENT ( #303, #25, ( #242 ) ) ;
#90 = DIRECTION ( 'NONE',  ( -1.000000000000000000, -0.000000000000000000, -0.000000000000000000 ) ) ;
#91 = CYLINDRICAL_SURFACE ( 'NONE', #331, 5.000000000000000888 ) ;
#92 = ORIENTED_EDGE ( 'NONE', *, *, #272, .T. ) ;
#93 = DIRECTION ( 'NONE',  ( -1.000000000000000000, -0.000000000000000000, -0.000000000000000000 ) ) ;
#94 = AXIS2_PLACEMENT_3D ( 'NONE', #245, #174, #70 ) ;
#95 = CARTESIAN_POINT ( 'NONE',  ( 3.000000000000000000, 0.000000000000000000, 0.000000000000000000 ) ) ;
#96 = DIRECTION ( 'NONE',  ( -1.000000000000000000, -0.000000000000000000, -0.000000000000000000 ) ) ;
#97 = VERTEX_POINT ( 'NONE', #279 ) ;
#98 = VECTOR ( 'NONE', #220, 1000.000000000000000 ) ;
#99 = PERSON_AND_ORGANIZATION_ROLE ( 'creator' ) ;
#100 = CC_DESIGN_PERSON_AND_ORGANIZATION_ASSIGNMENT ( #205, #180, ( #185 ) ) ;
#101 = ORIENTED_EDGE ( 'NONE', *, *, #147, .T. ) ;
#102 = MECHANICAL_CONTEXT ( 'NONE', #122, 'mechanical' ) ;
#103 = ORIENTED_EDGE ( 'NONE', *, *, #124, .F. ) ;
#104 = AXIS2_PLACEMENT_3D ( 'NONE', #288, #117, #168 ) ;
#105 = CARTESIAN_POINT ( 'NONE',  ( -1.614212418857619014, 0.000000000000000000, 0.000000000000000000 ) ) ;
#106 = APPROVAL_ROLE ( '' ) ;
#107 = DESIGN_CONTEXT ( 'detailed design', #297, 'design' ) ;
#108 = DIRECTION ( 'NONE',  ( 0.000000000000000000, 0.000000000000000000, 1.000000000000000000 ) ) ;
#109 = CARTESIAN_POINT ( 'NONE',  ( 3.000000000000000000, 0.000000000000000000, 0.000000000000000000 ) ) ;
#110 = CC_DESIGN_DATE_AND_TIME_ASSIGNMENT ( #57, #177, ( #229 ) ) ;
#111 =( GEOMETRIC_REPRESENTATION_CONTEXT ( 3 ) GLOBAL_UNCERTAINTY_ASSIGNED_CONTEXT ( ( #234 ) ) GLOBAL_UNIT_ASSIGNED_CONTEXT ( ( #125, #26, #209 ) ) REPRESENTATION_CONTEXT ( 'NONE', 'WORKASPACE' ) );
#112 = DIRECTION ( 'NONE',  ( -1.000000000000000000, -0.000000000000000000, -0.000000000000000000 ) ) ;
#113 = AXIS2_PLACEMENT_3D ( 'NONE', #34, #259, #316 ) ;
#114 = DIRECTION ( 'NONE',  ( 1.000000000000000000, 0.000000000000000000, 0.000000000000000000 ) ) ;
#115 = CYLINDRICAL_SURFACE ( 'NONE', #268, 5.000000000000000888 ) ;
#116 = DIRECTION ( 'NONE',  ( -1.000000000000000000, 0.000000000000000000, -0.000000000000000000 ) ) ;
#117 = DIRECTION ( 'NONE',  ( -1.000000000000000000, -0.000000000000000000, -0.000000000000000000 ) ) ;
#118 = EDGE_LOOP ( 'NONE', ( #175, #330, #267, #20 ) ) ;
#119 = LINE ( 'NONE', #200, #42 ) ;
#120 = EDGE_LOOP ( 'NONE', ( #5, #183, #299, #69 ) ) ;
#121 = APPROVAL_DATE_TIME ( #151, #195 ) ;
#122 = APPLICATION_CONTEXT ( 'configuration controlled 3d designs of mechanical parts and assemblies' ) ;
#123 = ORIENTED_EDGE ( 'NONE', *, *, #252, .T. ) ;
#124 = EDGE_CURVE ( 'NONE', #97, #273, #41, .T. ) ;
#125 =( LENGTH_UNIT ( ) NAMED_UNIT ( * ) SI_UNIT ( .MILLI., .METRE. ) );
#126 = CIRCLE ( 'NONE', #11, 5.000000000000000000 ) ;
#127 = APPROVAL_STATUS ( 'not_yet_approved' ) ;
#128 = EDGE_LOOP ( 'NONE', ( #130, #48, #206, #270 ) ) ;
#129 = ADVANCED_FACE ( 'NONE', ( #63, #38 ), #85, .F. ) ;
#130 = ORIENTED_EDGE ( 'NONE', *, *, #162, .F. ) ;
#131 = SHAPE_DEFINITION_REPRESENTATION ( #312, #32 ) ;
#132 = PLANE ( 'NONE',  #236 ) ;
#133 = FACE_OUTER_BOUND ( 'NONE', #247, .T. ) ;
#134 = PERSON ( 'UNSPECIFIED', 'UNSPECIFIED', 'UNSPECIFIED', ('UNSPECIFIED'), ('UNSPECIFIED'), ('UNSPECIFIED') ) ;
#135 = EDGE_CURVE ( 'NONE', #210, #148, #321, .T. ) ;
#136 = CARTESIAN_POINT ( 'NONE',  ( -0.5000000000000002220, 5.000000000000000000, 0.000000000000000000 ) ) ;
#137 = VECTOR ( 'NONE', #265, 1000.000000000000000 ) ;
#138 = ORGANIZATION ( 'UNSPECIFIED', 'UNSPECIFIED', '' ) ;
#139 = DIRECTION ( 'NONE',  ( -1.000000000000000000, -0.000000000000000000, -0.000000000000000000 ) ) ;
#140 = AXIS2_PLACEMENT_3D ( 'NONE', #164, #211, #257 ) ;
#141 = DIRECTION ( 'NONE',  ( 0.000000000000000000, 0.000000000000000000, 1.000000000000000000 ) ) ;
#142 = CIRCLE ( 'NONE', #14, 5.000000000000001776 ) ;
#143 = FACE_OUTER_BOUND ( 'NONE', #225, .T. ) ;
#144 = LINE ( 'NONE', #243, #98 ) ;
#145 = ORIENTED_EDGE ( 'NONE', *, *, #162, .T. ) ;
#146 = CARTESIAN_POINT ( 'NONE',  ( 3.000000000000000000, 0.000000000000000000, 0.000000000000000000 ) ) ;
#147 = EDGE_CURVE ( 'NONE', #12, #97, #142, .T. ) ;
#148 = VERTEX_POINT ( 'NONE', #9 ) ;
#149 = DIRECTION ( 'NONE',  ( -1.000000000000000000, -0.000000000000000000, -0.000000000000000000 ) ) ;
#150 = ORIENTED_EDGE ( 'NONE', *, *, #169, .T. ) ;
#151 = DATE_AND_TIME ( #227, #196 ) ;
#152 = PERSON_AND_ORGANIZATION ( #134, #138 ) ;
#153 = APPROVAL_DATE_TIME ( #253, #55 ) ;
#154 = AXIS2_PLACEMENT_3D ( 'NONE', #291, #322, #222 ) ;
#155 = ORIENTED_EDGE ( 'NONE', *, *, #39, .T. ) ;
#156 = ADVANCED_FACE ( 'NONE', ( #315 ), #132, .F. ) ;
#157 = CARTESIAN_POINT ( 'NONE',  ( -1.614212418857619014, 0.000000000000000000, 0.000000000000000000 ) ) ;
#158 = AXIS2_PLACEMENT_3D ( 'NONE', #157, #90, #261 ) ;
#159 = COORDINATED_UNIVERSAL_TIME_OFFSET ( 8, 0, .AHEAD. ) ;
#160 = EDGE_CURVE ( 'NONE', #273, #49, #326, .T. ) ;
#161 = CYLINDRICAL_SURFACE ( 'NONE', #298, 5.000000000000000888 ) ;
#162 = EDGE_CURVE ( 'NONE', #12, #49, #191, .T. ) ;
#163 = CARTESIAN_POINT ( 'NONE',  ( -3.000000000000000000, 1.555301434917138433E-15, -12.69999999999999929 ) ) ;
#164 = CARTESIAN_POINT ( 'NONE',  ( -1.614212418857619014, 0.000000000000000000, 0.000000000000000000 ) ) ;
#165 = CC_DESIGN_SECURITY_CLASSIFICATION ( #242, ( #185 ) ) ;
#166 = DIRECTION ( 'NONE',  ( -1.000000000000000000, -0.000000000000000000, -0.000000000000000000 ) ) ;
#167 = CC_DESIGN_PERSON_AND_ORGANIZATION_ASSIGNMENT ( #335, #207, ( #185 ) ) ;
#168 = DIRECTION ( 'NONE',  ( 0.000000000000000000, 0.000000000000000000, 1.000000000000000000 ) ) ;
#169 = EDGE_CURVE ( 'NONE', #97, #12, #329, .T. ) ;
#170 = ORIENTED_EDGE ( 'NONE', *, *, #283, .F. ) ;
#171 = CARTESIAN_POINT ( 'NONE',  ( -1.614212418857619014, 0.000000000000000000, 0.000000000000000000 ) ) ;
#172 = EDGE_CURVE ( 'NONE', #49, #273, #40, .T. ) ;
#173 = ORIENTED_EDGE ( 'NONE', *, *, #283, .T. ) ;
#174 = DIRECTION ( 'NONE',  ( -1.000000000000000000, -0.000000000000000000, -0.000000000000000000 ) ) ;
#175 = ORIENTED_EDGE ( 'NONE', *, *, #251, .T. ) ;
#176 = AXIS2_PLACEMENT_3D ( 'NONE', #186, #139, #108 ) ;
#177 = DATE_TIME_ROLE ( 'creation_date' ) ;
#178 = CALENDAR_DATE ( 2021, 5, 1 ) ;
#179 = APPROVAL_STATUS ( 'not_yet_approved' ) ;
#180 = PERSON_AND_ORGANIZATION_ROLE ( 'design_supplier' ) ;
#181 = EDGE_LOOP ( 'NONE', ( #201, #287 ) ) ;
#182 = DIRECTION ( 'NONE',  ( 0.000000000000000000, 0.000000000000000000, 1.000000000000000000 ) ) ;
#183 = ORIENTED_EDGE ( 'NONE', *, *, #292, .T. ) ;
#184 = AXIS2_PLACEMENT_3D ( 'NONE', #146, #198, #295 ) ;
#185 = PRODUCT_DEFINITION_FORMATION_WITH_SPECIFIED_SOURCE ( 'ANY', '', #59, .NOT_KNOWN. ) ;
#186 = CARTESIAN_POINT ( 'NONE',  ( -3.000000000000000000, 0.000000000000000000, 0.000000000000000000 ) ) ;
#187 = DATE_AND_TIME ( #307, #81 ) ;
#188 = DIRECTION ( 'NONE',  ( 1.000000000000000000, 0.000000000000000000, 0.000000000000000000 ) ) ;
#189 = ADVANCED_FACE ( 'NONE', ( #240 ), #91, .F. ) ;
#190 = FACE_OUTER_BOUND ( 'NONE', #244, .T. ) ;
#191 = LINE ( 'NONE', #284, #137 ) ;
#192 = DIRECTION ( 'NONE',  ( -1.000000000000000000, -0.000000000000000000, -0.000000000000000000 ) ) ;
#193 = EDGE_CURVE ( 'NONE', #289, #58, #228, .T. ) ;
#194 = DIRECTION ( 'NONE',  ( 0.000000000000000000, 0.000000000000000000, 1.000000000000000000 ) ) ;
#195 = APPROVAL ( #127, 'UNSPECIFIED' ) ;
#196 = LOCAL_TIME ( 10, 43, 41.00000000000000000, #249 ) ;
#197 = CARTESIAN_POINT ( 'NONE',  ( -1.614212418857619014, 6.123233995736767268E-16, -5.000000000000000888 ) ) ;
#198 = DIRECTION ( 'NONE',  ( -1.000000000000000000, -0.000000000000000000, -0.000000000000000000 ) ) ;
#199 = ADVANCED_FACE ( 'NONE', ( #325 ), #115, .F. ) ;
#200 = CARTESIAN_POINT ( 'NONE',  ( -1.614212418857619014, 0.000000000000000000, 5.000000000000000888 ) ) ;
#201 = ORIENTED_EDGE ( 'NONE', *, *, #251, .F. ) ;
#202 = AXIS2_PLACEMENT_3D ( 'NONE', #95, #96, #73 ) ;
#203 = CARTESIAN_POINT ( 'NONE',  ( -3.000000000000000000, 0.000000000000000000, 0.000000000000000000 ) ) ;
#204 = VERTEX_POINT ( 'NONE', #217 ) ;
#205 = PERSON_AND_ORGANIZATION ( #134, #138 ) ;
#206 = ORIENTED_EDGE ( 'NONE', *, *, #124, .T. ) ;
#207 = PERSON_AND_ORGANIZATION_ROLE ( 'creator' ) ;
#208 = COORDINATED_UNIVERSAL_TIME_OFFSET ( 8, 0, .AHEAD. ) ;
#209 =( NAMED_UNIT ( * ) SI_UNIT ( $, .STERADIAN. ) SOLID_ANGLE_UNIT ( ) );
#210 = VERTEX_POINT ( 'NONE', #18 ) ;
#211 = DIRECTION ( 'NONE',  ( -1.000000000000000000, -0.000000000000000000, -0.000000000000000000 ) ) ;
#212 = CC_DESIGN_PERSON_AND_ORGANIZATION_ASSIGNMENT ( #4, #99, ( #229 ) ) ;
#213 = CARTESIAN_POINT ( 'NONE',  ( -3.000000000000000000, 0.000000000000000000, 12.69999999999999929 ) ) ;
#214 = DIRECTION ( 'NONE',  ( 0.000000000000000000, 0.000000000000000000, 1.000000000000000000 ) ) ;
#215 = CC_DESIGN_APPROVAL ( #195, ( #229 ) ) ;
#216 = DIRECTION ( 'NONE',  ( -1.000000000000000000, -0.000000000000000000, -0.000000000000000000 ) ) ;
#217 = CARTESIAN_POINT ( 'NONE',  ( 3.000000000000000000, 0.000000000000000000, 12.69999999999999929 ) ) ;
#218 = CARTESIAN_POINT ( 'NONE',  ( -1.614212418857619014, 0.000000000000000000, 0.000000000000000000 ) ) ;
#219 = DIRECTION ( 'NONE',  ( -1.000000000000000000, -0.000000000000000000, -0.000000000000000000 ) ) ;
#220 = DIRECTION ( 'NONE',  ( -1.000000000000000000, -0.000000000000000000, -0.000000000000000000 ) ) ;
#221 = ORIENTED_EDGE ( 'NONE', *, *, #135, .F. ) ;
#222 = DIRECTION ( 'NONE',  ( 0.000000000000000000, 0.000000000000000000, 1.000000000000000000 ) ) ;
#223 = APPROVAL_PERSON_ORGANIZATION ( #333, #55, #52 ) ;
#224 = DIRECTION ( 'NONE',  ( 1.000000000000000000, 0.000000000000000000, 0.000000000000000000 ) ) ;
#225 = EDGE_LOOP ( 'NONE', ( #277, #255 ) ) ;
#226 = CALENDAR_DATE ( 2021, 5, 1 ) ;
#227 = CALENDAR_DATE ( 2021, 5, 1 ) ;
#228 = CIRCLE ( 'NONE', #47, 5.000000000000000888 ) ;
#229 = PRODUCT_DEFINITION ( 'UNKNOWN', '', #185, #107 ) ;
#230 = APPLICATION_PROTOCOL_DEFINITION ( 'international standard', 'config_control_design', 1994, #122 ) ;
#231 = EDGE_LOOP ( 'NONE', ( #294, #221 ) ) ;
#232 = ORIENTED_EDGE ( 'NONE', *, *, #172, .T. ) ;
#233 = DIRECTION ( 'NONE',  ( -1.000000000000000000, 0.000000000000000000, -0.000000000000000000 ) ) ;
#234 = UNCERTAINTY_MEASURE_WITH_UNIT (LENGTH_MEASURE( 1.000000000000000082E-05 ), #125, 'distance_accuracy_value', 'NONE');
#235 = PLANE ( 'NONE',  #264 ) ;
#236 = AXIS2_PLACEMENT_3D ( 'NONE', #136, #188, #86 ) ;
#237 = CARTESIAN_POINT ( 'NONE',  ( 3.000000000000000000, 1.555301434917138433E-15, -12.69999999999999929 ) ) ;
#238 = VECTOR ( 'NONE', #68, 1000.000000000000000 ) ;
#239 = CARTESIAN_POINT ( 'NONE',  ( -1.614212418857619014, 0.000000000000000000, 5.000000000000000888 ) ) ;
#240 = FACE_OUTER_BOUND ( 'NONE', #66, .T. ) ;
#241 = CARTESIAN_POINT ( 'NONE',  ( 0.5000000000000002220, 5.000000000000000000, 0.000000000000000000 ) ) ;
#242 = SECURITY_CLASSIFICATION ( '', '', #300 ) ;
#243 = CARTESIAN_POINT ( 'NONE',  ( -1.614212418857619014, 1.555301434917138433E-15, -12.69999999999999929 ) ) ;
#244 = EDGE_LOOP ( 'NONE', ( #76, #173 ) ) ;
#245 = CARTESIAN_POINT ( 'NONE',  ( 0.5000000000000004441, 0.000000000000000000, 0.000000000000000000 ) ) ;
#246 = DIRECTION ( 'NONE',  ( -1.000000000000000000, -0.000000000000000000, -0.000000000000000000 ) ) ;
#247 = EDGE_LOOP ( 'NONE', ( #334, #92, #155, #170 ) ) ;
#248 = CIRCLE ( 'NONE', #56, 12.69999999999999929 ) ;
#249 = COORDINATED_UNIVERSAL_TIME_OFFSET ( 8, 0, .AHEAD. ) ;
#250 = PERSON_AND_ORGANIZATION ( #134, #138 ) ;
#251 = EDGE_CURVE ( 'NONE', #204, #72, #254, .T. ) ;
#252 = EDGE_CURVE ( 'NONE', #289, #148, #119, .T. ) ;
#253 = DATE_AND_TIME ( #3, #2 ) ;
#254 = CIRCLE ( 'NONE', #202, 12.69999999999999929 ) ;
#255 = ORIENTED_EDGE ( 'NONE', *, *, #172, .F. ) ;
#256 = CARTESIAN_POINT ( 'NONE',  ( 3.000000000000000000, 12.69999999999999929, 0.000000000000000000 ) ) ;
#257 = DIRECTION ( 'NONE',  ( 0.000000000000000000, 0.000000000000000000, 1.000000000000000000 ) ) ;
#258 = APPROVAL_PERSON_ORGANIZATION ( #250, #195, #79 ) ;
#259 = DIRECTION ( 'NONE',  ( 1.000000000000000000, 0.000000000000000000, 0.000000000000000000 ) ) ;
#260 = DIRECTION ( 'NONE',  ( 0.000000000000000000, 0.000000000000000000, 1.000000000000000000 ) ) ;
#261 = DIRECTION ( 'NONE',  ( 0.000000000000000000, 0.000000000000000000, 1.000000000000000000 ) ) ;
#262 = AXIS2_PLACEMENT_3D ( 'NONE', #171, #149, #45 ) ;
#263 = DIRECTION ( 'NONE',  ( -1.000000000000000000, -0.000000000000000000, -0.000000000000000000 ) ) ;
#264 = AXIS2_PLACEMENT_3D ( 'NONE', #311, #114, #60 ) ;
#265 = DIRECTION ( 'NONE',  ( -1.000000000000000000, -0.000000000000000000, -0.000000000000000000 ) ) ;
#266 = DIRECTION ( 'NONE',  ( 0.000000000000000000, 0.000000000000000000, 1.000000000000000000 ) ) ;
#267 = ORIENTED_EDGE ( 'NONE', *, *, #302, .F. ) ;
#268 = AXIS2_PLACEMENT_3D ( 'NONE', #218, #263, #194 ) ;
#269 = FACE_OUTER_BOUND ( 'NONE', #301, .T. ) ;
#270 = ORIENTED_EDGE ( 'NONE', *, *, #160, .T. ) ;
#271 = LINE ( 'NONE', #197, #238 ) ;
#272 = EDGE_CURVE ( 'NONE', #72, #204, #87, .T. ) ;
#273 = VERTEX_POINT ( 'NONE', #44 ) ;
#274 = PERSON_AND_ORGANIZATION_ROLE ( 'design_owner' ) ;
#275 = DATE_TIME_ROLE ( 'classification_date' ) ;
#276 = ORIENTED_EDGE ( 'NONE', *, *, #147, .F. ) ;
#277 = ORIENTED_EDGE ( 'NONE', *, *, #160, .F. ) ;
#278 = VECTOR ( 'NONE', #88, 1000.000000000000000 ) ;
#279 = CARTESIAN_POINT ( 'NONE',  ( 3.000000000000000000, 0.000000000000000000, 5.000000000000001776 ) ) ;
#280 = EDGE_CURVE ( 'NONE', #148, #210, #126, .T. ) ;
#281 = DIRECTION ( 'NONE',  ( -0.000000000000000000, 0.000000000000000000, 1.000000000000000000 ) ) ;
#282 = CARTESIAN_POINT ( 'NONE',  ( 0.5000000000000004441, 0.000000000000000000, 0.000000000000000000 ) ) ;
#283 = EDGE_CURVE ( 'NONE', #51, #80, #248, .T. ) ;
#284 = CARTESIAN_POINT ( 'NONE',  ( -1.614212418857619014, 6.123233995736767268E-16, -5.000000000000000888 ) ) ;
#285 = LINE ( 'NONE', #10, #278 ) ;
#286 = AXIS2_PLACEMENT_3D ( 'NONE', #256, #233, #281 ) ;
#287 = ORIENTED_EDGE ( 'NONE', *, *, #272, .F. ) ;
#288 = CARTESIAN_POINT ( 'NONE',  ( -3.000000000000000000, 0.000000000000000000, 0.000000000000000000 ) ) ;
#289 = VERTEX_POINT ( 'NONE', #328 ) ;
#290 = DIRECTION ( 'NONE',  ( 0.000000000000000000, 0.000000000000000000, 1.000000000000000000 ) ) ;
#291 = CARTESIAN_POINT ( 'NONE',  ( 3.000000000000000000, 0.000000000000000000, 0.000000000000000000 ) ) ;
#292 = EDGE_CURVE ( 'NONE', #58, #210, #271, .T. ) ;
#293 = CARTESIAN_POINT ( 'NONE',  ( -3.000000000000000000, 0.000000000000000000, 0.000000000000000000 ) ) ;
#294 = ORIENTED_EDGE ( 'NONE', *, *, #280, .F. ) ;
#295 = DIRECTION ( 'NONE',  ( 0.000000000000000000, 0.000000000000000000, 1.000000000000000000 ) ) ;
#296 = APPROVAL ( #54, 'UNSPECIFIED' ) ;
#297 = APPLICATION_CONTEXT ( 'configuration controlled 3d designs of mechanical parts and assemblies' ) ;
#298 = AXIS2_PLACEMENT_3D ( 'NONE', #105, #192, #260 ) ;
#299 = ORIENTED_EDGE ( 'NONE', *, *, #135, .T. ) ;
#300 = SECURITY_CLASSIFICATION_LEVEL ( 'unclassified' ) ;
#301 = EDGE_LOOP ( 'NONE', ( #30, #6, #123, #22 ) ) ;
#302 = EDGE_CURVE ( 'NONE', #80, #51, #67, .T. ) ;
#303 = PERSON_AND_ORGANIZATION ( #134, #138 ) ;
#304 = ADVANCED_FACE ( 'NONE', ( #269 ), #50, .F. ) ;
#305 = DATE_AND_TIME ( #178, #323 ) ;
#306 = VECTOR ( 'NONE', #82, 1000.000000000000000 ) ;
#307 = CALENDAR_DATE ( 2021, 5, 1 ) ;
#308 = CC_DESIGN_APPROVAL ( #296, ( #242 ) ) ;
#309 = CARTESIAN_POINT ( 'NONE',  ( 3.000000000000000000, 6.123233995736768255E-16, -5.000000000000001776 ) ) ;
#310 = ADVANCED_FACE ( 'NONE', ( #143 ), #46, .F. ) ;
#311 = CARTESIAN_POINT ( 'NONE',  ( -3.000000000000000000, 5.000000000000000000, 0.000000000000000000 ) ) ;
#312 = PRODUCT_DEFINITION_SHAPE ( 'NONE', 'NONE',  #229 ) ;
#313 = EDGE_CURVE ( 'NONE', #72, #51, #144, .T. ) ;
#314 = APPROVAL_DATE_TIME ( #187, #296 ) ;
#315 = FACE_OUTER_BOUND ( 'NONE', #33, .T. ) ;
#316 = DIRECTION ( 'NONE',  ( 0.000000000000000000, 0.000000000000000000, -1.000000000000000000 ) ) ;
#317 = AXIS2_PLACEMENT_3D ( 'NONE', #241, #116, #324 ) ;
#318 = CLOSED_SHELL ( 'NONE', ( #83, #17, #189, #310, #199, #304, #53, #27, #129, #156 ) ) ;
#319 = CYLINDRICAL_SURFACE ( 'NONE', #140, 12.69999999999999929 ) ;
#320 = DIRECTION ( 'NONE',  ( 0.000000000000000000, 0.000000000000000000, -1.000000000000000000 ) ) ;
#321 = CIRCLE ( 'NONE', #176, 5.000000000000000000 ) ;
#322 = DIRECTION ( 'NONE',  ( -1.000000000000000000, -0.000000000000000000, -0.000000000000000000 ) ) ;
#323 = LOCAL_TIME ( 10, 43, 41.00000000000000000, #29 ) ;
#324 = DIRECTION ( 'NONE',  ( -0.000000000000000000, 0.000000000000000000, 1.000000000000000000 ) ) ;
#325 = FACE_OUTER_BOUND ( 'NONE', #128, .T. ) ;
#326 = CIRCLE ( 'NONE', #37, 5.000000000000000000 ) ;
#327 = ORIENTED_EDGE ( 'NONE', *, *, #19, .F. ) ;
#328 = CARTESIAN_POINT ( 'NONE',  ( -0.5000000000000002220, 0.000000000000000000, 5.000000000000000888 ) ) ;
#329 = CIRCLE ( 'NONE', #184, 5.000000000000001776 ) ;
#330 = ORIENTED_EDGE ( 'NONE', *, *, #313, .T. ) ;
#331 = AXIS2_PLACEMENT_3D ( 'NONE', #15, #166, #141 ) ;
#332 = MANIFOLD_SOLID_BREP ( 'Ðý×', #318 ) ;
#333 = PERSON_AND_ORGANIZATION ( #134, #138 ) ;
#334 = ORIENTED_EDGE ( 'NONE', *, *, #313, .F. ) ;
#335 = PERSON_AND_ORGANIZATION ( #134, #138 ) ;
ENDSEC;
END-ISO-10303-21;
